ISO-10303-21;
HEADER;
/* Generated by software containing ST-Developer
 * from STEP Tools, Inc. (www.steptools.com) 
 */
/* OPTION: using custom schema-name function */

FILE_DESCRIPTION(
/* description */ (''),
/* implementation_level */ '2;1');

FILE_NAME(
/* name */ 'X Motor Halteplatte.stp',
/* time_stamp */ '2023-08-10T11:28:40+02:00',
/* author */ (''),
/* organization */ (''),
/* preprocessor_version */ 'ST-DEVELOPER v18.102',
/* originating_system */ 'SIEMENS PLM Software NX2206.8900',
/* authorisation */ '');

FILE_SCHEMA (('AP203_CONFIGURATION_CONTROLLED_3D_DESIGN_OF_MECHANICAL_PARTS_AND_ASSEMBLIES_MIM_LF { 1 0 10303 403 2 1 2}'));
ENDSEC;

DATA;
#10=PROPERTY_DEFINITION_REPRESENTATION(#14,#12);
#11=PROPERTY_DEFINITION_REPRESENTATION(#15,#13);
#12=REPRESENTATION('',(#16),#489);
#13=REPRESENTATION('',(#17),#489);
#14=PROPERTY_DEFINITION('pmi validation property','',#73);
#15=PROPERTY_DEFINITION('pmi validation property','',#73);
#16=VALUE_REPRESENTATION_ITEM('number of annotations',COUNT_MEASURE(0.));
#17=VALUE_REPRESENTATION_ITEM('number of views',COUNT_MEASURE(0.));
#18=SHAPE_REPRESENTATION_RELATIONSHIP('None',
'relationship between Portalfr\X\E4se_Eggi3388B2325siz-None and Portal
fr\X\E4se_Eggi3388B2325siz-None',#84,#19);
#19=ADVANCED_BREP_SHAPE_REPRESENTATION(
'Portalfr\X\E4se_Eggi3388B2325siz-None',(#85),#489);
#20=APPLIED_APPROVAL_ASSIGNMENT(#32,(#74));
#21=APPLIED_APPROVAL_ASSIGNMENT(#33,(#76));
#22=APPLIED_APPROVAL_ASSIGNMENT(#34,(#46));
#23=APPROVAL_PERSON_ORGANIZATION(#38,#32,#26);
#24=APPROVAL_PERSON_ORGANIZATION(#39,#33,#27);
#25=APPROVAL_PERSON_ORGANIZATION(#40,#34,#28);
#26=APPROVAL_ROLE('approver');
#27=APPROVAL_ROLE('approver');
#28=APPROVAL_ROLE('approver');
#29=APPROVAL_DATE_TIME(#54,#32);
#30=APPROVAL_DATE_TIME(#55,#33);
#31=APPROVAL_DATE_TIME(#56,#34);
#32=APPROVAL(#35,' ');
#33=APPROVAL(#36,' ');
#34=APPROVAL(#37,' ');
#35=APPROVAL_STATUS('not_yet_approved');
#36=APPROVAL_STATUS('not_yet_approved');
#37=APPROVAL_STATUS('not_yet_approved');
#38=PERSON_AND_ORGANIZATION(#44,#41);
#39=PERSON_AND_ORGANIZATION(#44,#42);
#40=PERSON_AND_ORGANIZATION(#44,#43);
#41=ORGANIZATION(' ',' ',' ');
#42=ORGANIZATION(' ',' ',' ');
#43=ORGANIZATION(' ',' ',' ');
#44=PERSON(' ',' ',' ',(' '),$,$);
#45=APPLIED_SECURITY_CLASSIFICATION_ASSIGNMENT(#46,(#76));
#46=SECURITY_CLASSIFICATION(' ',' ',#47);
#47=SECURITY_CLASSIFICATION_LEVEL('confidential');
#48=APPLIED_DATE_AND_TIME_ASSIGNMENT(#52,#50,(#74));
#49=APPLIED_DATE_AND_TIME_ASSIGNMENT(#53,#51,(#46));
#50=DATE_TIME_ROLE('creation_date');
#51=DATE_TIME_ROLE('classification_date');
#52=DATE_AND_TIME(#67,#57);
#53=DATE_AND_TIME(#68,#58);
#54=DATE_AND_TIME(#69,#59);
#55=DATE_AND_TIME(#70,#60);
#56=DATE_AND_TIME(#71,#61);
#57=LOCAL_TIME(0,0,0.,#62);
#58=LOCAL_TIME(0,0,0.,#63);
#59=LOCAL_TIME(0,0,0.,#64);
#60=LOCAL_TIME(0,0,0.,#65);
#61=LOCAL_TIME(0,0,0.,#66);
#62=COORDINATED_UNIVERSAL_TIME_OFFSET(0,0,.BEHIND.);
#63=COORDINATED_UNIVERSAL_TIME_OFFSET(0,0,.BEHIND.);
#64=COORDINATED_UNIVERSAL_TIME_OFFSET(0,0,.BEHIND.);
#65=COORDINATED_UNIVERSAL_TIME_OFFSET(0,0,.BEHIND.);
#66=COORDINATED_UNIVERSAL_TIME_OFFSET(0,0,.BEHIND.);
#67=CALENDAR_DATE(0,1,1);
#68=CALENDAR_DATE(0,1,1);
#69=CALENDAR_DATE(0,1,1);
#70=CALENDAR_DATE(0,1,1);
#71=CALENDAR_DATE(0,1,1);
#72=SHAPE_DEFINITION_REPRESENTATION(#73,#84);
#73=PRODUCT_DEFINITION_SHAPE('','',#74);
#74=PRODUCT_DEFINITION(' ','',#76,#75);
#75=PRODUCT_DEFINITION_CONTEXT('part definition',#83,'design');
#76=PRODUCT_DEFINITION_FORMATION_WITH_SPECIFIED_SOURCE(' ',' ',#78,
 .NOT_KNOWN.);
#77=PRODUCT_RELATED_PRODUCT_CATEGORY('detail','',(#78));
#78=PRODUCT('Portalfr\X\E4se_Eggi3388B2325siz',
'Portalfr\X\E4se_Eggi3388B2325siz',' ',(#81));
#79=PRODUCT_CATEGORY('part',' ');
#80=PRODUCT_CATEGORY(' ','');
#81=PRODUCT_CONTEXT(' ',#83,'mechanical');
#82=APPLICATION_PROTOCOL_DEFINITION('international standard',
'config_control_design',2010,#83);
#83=APPLICATION_CONTEXT(
'configuration controlled 3D designs of mechanical parts and assemblie
s');
#84=SHAPE_REPRESENTATION('Portalfr\X\E4se_Eggi3388B2325siz-None',(#323),
#489);
#85=MANIFOLD_SOLID_BREP('',#86);
#86=CLOSED_SHELL('',(#99,#100,#101,#102,#103,#104,#105,#106,#107,#108,#109,
#110,#111,#112,#113));
#87=CYLINDRICAL_SURFACE('',#331,17.5);
#88=CYLINDRICAL_SURFACE('',#334,2.5);
#89=CYLINDRICAL_SURFACE('',#340,2.5);
#90=CYLINDRICAL_SURFACE('',#343,36.55);
#91=CYLINDRICAL_SURFACE('',#346,3.4);
#92=CYLINDRICAL_SURFACE('',#349,3.4);
#93=FACE_OUTER_BOUND('',#179,.T.);
#94=FACE_OUTER_BOUND('',#180,.T.);
#95=FACE_OUTER_BOUND('',#181,.T.);
#96=FACE_OUTER_BOUND('',#195,.T.);
#97=FACE_OUTER_BOUND('',#201,.T.);
#98=FACE_OUTER_BOUND('',#204,.T.);
#99=ADVANCED_FACE('',(#155,#156),#114,.F.);
#100=ADVANCED_FACE('',(#93),#115,.F.);
#101=ADVANCED_FACE('',(#94),#116,.F.);
#102=ADVANCED_FACE('',(#95),#117,.F.);
#103=ADVANCED_FACE('',(#157,#158),#87,.F.);
#104=ADVANCED_FACE('',(#159,#160),#88,.F.);
#105=ADVANCED_FACE('',(#161,#162,#163),#118,.F.);
#106=ADVANCED_FACE('',(#164,#165),#89,.F.);
#107=ADVANCED_FACE('',(#166,#167,#168,#169),#119,.T.);
#108=ADVANCED_FACE('',(#96),#90,.F.);
#109=ADVANCED_FACE('',(#170,#171,#172),#120,.F.);
#110=ADVANCED_FACE('',(#173,#174),#91,.F.);
#111=ADVANCED_FACE('',(#97),#121,.T.);
#112=ADVANCED_FACE('',(#175,#176),#92,.F.);
#113=ADVANCED_FACE('',(#98),#122,.T.);
#114=PLANE('',#326);
#115=PLANE('',#327);
#116=PLANE('',#328);
#117=PLANE('',#329);
#118=PLANE('',#337);
#119=PLANE('',#341);
#120=PLANE('',#344);
#121=PLANE('',#347);
#122=PLANE('',#350);
#123=LINE('',#429,#139);
#124=LINE('',#431,#140);
#125=LINE('',#434,#141);
#126=LINE('',#436,#142);
#127=LINE('',#438,#143);
#128=LINE('',#440,#144);
#129=LINE('',#442,#145);
#130=LINE('',#444,#146);
#131=LINE('',#446,#147);
#132=LINE('',#448,#148);
#133=LINE('',#450,#149);
#134=LINE('',#464,#150);
#135=LINE('',#465,#151);
#136=LINE('',#467,#152);
#137=LINE('',#468,#153);
#138=LINE('',#470,#154);
#139=VECTOR('',#357,1.);
#140=VECTOR('',#360,1.);
#141=VECTOR('',#361,1.);
#142=VECTOR('',#362,1.);
#143=VECTOR('',#363,1.);
#144=VECTOR('',#366,1.);
#145=VECTOR('',#367,1.);
#146=VECTOR('',#368,1.);
#147=VECTOR('',#371,1.);
#148=VECTOR('',#372,1.);
#149=VECTOR('',#373,1.);
#150=VECTOR('',#390,1.);
#151=VECTOR('',#391,1.);
#152=VECTOR('',#392,1.);
#153=VECTOR('',#393,1.);
#154=VECTOR('',#394,1.);
#155=FACE_BOUND('',#177,.T.);
#156=FACE_BOUND('',#178,.T.);
#157=FACE_BOUND('',#182,.T.);
#158=FACE_BOUND('',#183,.T.);
#159=FACE_BOUND('',#184,.T.);
#160=FACE_BOUND('',#185,.T.);
#161=FACE_BOUND('',#186,.T.);
#162=FACE_BOUND('',#187,.T.);
#163=FACE_BOUND('',#188,.T.);
#164=FACE_BOUND('',#189,.T.);
#165=FACE_BOUND('',#190,.T.);
#166=FACE_BOUND('',#191,.T.);
#167=FACE_BOUND('',#192,.T.);
#168=FACE_BOUND('',#193,.T.);
#169=FACE_BOUND('',#194,.T.);
#170=FACE_BOUND('',#196,.T.);
#171=FACE_BOUND('',#197,.T.);
#172=FACE_BOUND('',#198,.T.);
#173=FACE_BOUND('',#199,.T.);
#174=FACE_BOUND('',#200,.T.);
#175=FACE_BOUND('',#202,.T.);
#176=FACE_BOUND('',#203,.T.);
#177=EDGE_LOOP('',(#205));
#178=EDGE_LOOP('',(#206,#207));
#179=EDGE_LOOP('',(#208,#209,#210,#211));
#180=EDGE_LOOP('',(#212,#213,#214,#215));
#181=EDGE_LOOP('',(#216,#217,#218,#219));
#182=EDGE_LOOP('',(#220));
#183=EDGE_LOOP('',(#221));
#184=EDGE_LOOP('',(#222));
#185=EDGE_LOOP('',(#223));
#186=EDGE_LOOP('',(#224));
#187=EDGE_LOOP('',(#225));
#188=EDGE_LOOP('',(#226,#227,#228,#229,#230,#231,#232,#233));
#189=EDGE_LOOP('',(#234));
#190=EDGE_LOOP('',(#235));
#191=EDGE_LOOP('',(#236,#237,#238,#239));
#192=EDGE_LOOP('',(#240));
#193=EDGE_LOOP('',(#241));
#194=EDGE_LOOP('',(#242));
#195=EDGE_LOOP('',(#243,#244,#245,#246));
#196=EDGE_LOOP('',(#247,#248,#249,#250,#251,#252));
#197=EDGE_LOOP('',(#253));
#198=EDGE_LOOP('',(#254));
#199=EDGE_LOOP('',(#255));
#200=EDGE_LOOP('',(#256));
#201=EDGE_LOOP('',(#257));
#202=EDGE_LOOP('',(#258));
#203=EDGE_LOOP('',(#259));
#204=EDGE_LOOP('',(#260));
#205=ORIENTED_EDGE('',*,*,#283,.T.);
#206=ORIENTED_EDGE('',*,*,#284,.F.);
#207=ORIENTED_EDGE('',*,*,#285,.F.);
#208=ORIENTED_EDGE('',*,*,#286,.T.);
#209=ORIENTED_EDGE('',*,*,#287,.F.);
#210=ORIENTED_EDGE('',*,*,#288,.F.);
#211=ORIENTED_EDGE('',*,*,#289,.F.);
#212=ORIENTED_EDGE('',*,*,#288,.T.);
#213=ORIENTED_EDGE('',*,*,#290,.F.);
#214=ORIENTED_EDGE('',*,*,#291,.F.);
#215=ORIENTED_EDGE('',*,*,#292,.F.);
#216=ORIENTED_EDGE('',*,*,#291,.T.);
#217=ORIENTED_EDGE('',*,*,#293,.F.);
#218=ORIENTED_EDGE('',*,*,#294,.F.);
#219=ORIENTED_EDGE('',*,*,#295,.F.);
#220=ORIENTED_EDGE('',*,*,#296,.T.);
#221=ORIENTED_EDGE('',*,*,#283,.F.);
#222=ORIENTED_EDGE('',*,*,#297,.T.);
#223=ORIENTED_EDGE('',*,*,#298,.F.);
#224=ORIENTED_EDGE('',*,*,#299,.T.);
#225=ORIENTED_EDGE('',*,*,#300,.T.);
#226=ORIENTED_EDGE('',*,*,#294,.T.);
#227=ORIENTED_EDGE('',*,*,#301,.F.);
#228=ORIENTED_EDGE('',*,*,#286,.F.);
#229=ORIENTED_EDGE('',*,*,#302,.F.);
#230=ORIENTED_EDGE('',*,*,#303,.T.);
#231=ORIENTED_EDGE('',*,*,#285,.T.);
#232=ORIENTED_EDGE('',*,*,#304,.T.);
#233=ORIENTED_EDGE('',*,*,#305,.F.);
#234=ORIENTED_EDGE('',*,*,#306,.T.);
#235=ORIENTED_EDGE('',*,*,#307,.F.);
#236=ORIENTED_EDGE('',*,*,#301,.T.);
#237=ORIENTED_EDGE('',*,*,#293,.T.);
#238=ORIENTED_EDGE('',*,*,#290,.T.);
#239=ORIENTED_EDGE('',*,*,#287,.T.);
#240=ORIENTED_EDGE('',*,*,#297,.F.);
#241=ORIENTED_EDGE('',*,*,#296,.F.);
#242=ORIENTED_EDGE('',*,*,#306,.F.);
#243=ORIENTED_EDGE('',*,*,#284,.T.);
#244=ORIENTED_EDGE('',*,*,#303,.F.);
#245=ORIENTED_EDGE('',*,*,#308,.F.);
#246=ORIENTED_EDGE('',*,*,#304,.F.);
#247=ORIENTED_EDGE('',*,*,#302,.T.);
#248=ORIENTED_EDGE('',*,*,#289,.T.);
#249=ORIENTED_EDGE('',*,*,#292,.T.);
#250=ORIENTED_EDGE('',*,*,#295,.T.);
#251=ORIENTED_EDGE('',*,*,#305,.T.);
#252=ORIENTED_EDGE('',*,*,#308,.T.);
#253=ORIENTED_EDGE('',*,*,#307,.T.);
#254=ORIENTED_EDGE('',*,*,#298,.T.);
#255=ORIENTED_EDGE('',*,*,#309,.T.);
#256=ORIENTED_EDGE('',*,*,#300,.F.);
#257=ORIENTED_EDGE('',*,*,#309,.F.);
#258=ORIENTED_EDGE('',*,*,#310,.T.);
#259=ORIENTED_EDGE('',*,*,#299,.F.);
#260=ORIENTED_EDGE('',*,*,#310,.F.);
#261=VERTEX_POINT('',#425);
#262=VERTEX_POINT('',#427);
#263=VERTEX_POINT('',#428);
#264=VERTEX_POINT('',#432);
#265=VERTEX_POINT('',#433);
#266=VERTEX_POINT('',#435);
#267=VERTEX_POINT('',#437);
#268=VERTEX_POINT('',#441);
#269=VERTEX_POINT('',#443);
#270=VERTEX_POINT('',#447);
#271=VERTEX_POINT('',#449);
#272=VERTEX_POINT('',#453);
#273=VERTEX_POINT('',#456);
#274=VERTEX_POINT('',#458);
#275=VERTEX_POINT('',#461);
#276=VERTEX_POINT('',#463);
#277=VERTEX_POINT('',#466);
#278=VERTEX_POINT('',#469);
#279=VERTEX_POINT('',#473);
#280=VERTEX_POINT('',#475);
#281=VERTEX_POINT('',#482);
#282=VERTEX_POINT('',#486);
#283=EDGE_CURVE('',#261,#261,#311,.T.);
#284=EDGE_CURVE('',#262,#263,#312,.T.);
#285=EDGE_CURVE('',#263,#262,#123,.T.);
#286=EDGE_CURVE('',#264,#265,#124,.T.);
#287=EDGE_CURVE('',#266,#265,#125,.T.);
#288=EDGE_CURVE('',#267,#266,#126,.T.);
#289=EDGE_CURVE('',#264,#267,#127,.T.);
#290=EDGE_CURVE('',#268,#266,#128,.T.);
#291=EDGE_CURVE('',#269,#268,#129,.T.);
#292=EDGE_CURVE('',#267,#269,#130,.T.);
#293=EDGE_CURVE('',#270,#268,#131,.T.);
#294=EDGE_CURVE('',#271,#270,#132,.T.);
#295=EDGE_CURVE('',#269,#271,#133,.T.);
#296=EDGE_CURVE('',#272,#272,#313,.T.);
#297=EDGE_CURVE('',#273,#273,#314,.T.);
#298=EDGE_CURVE('',#274,#274,#315,.T.);
#299=EDGE_CURVE('',#275,#275,#316,.T.);
#300=EDGE_CURVE('',#276,#276,#317,.T.);
#301=EDGE_CURVE('',#265,#270,#134,.T.);
#302=EDGE_CURVE('',#277,#264,#135,.T.);
#303=EDGE_CURVE('',#277,#263,#136,.T.);
#304=EDGE_CURVE('',#262,#278,#137,.T.);
#305=EDGE_CURVE('',#271,#278,#138,.T.);
#306=EDGE_CURVE('',#279,#279,#318,.T.);
#307=EDGE_CURVE('',#280,#280,#319,.T.);
#308=EDGE_CURVE('',#278,#277,#320,.T.);
#309=EDGE_CURVE('',#281,#281,#321,.T.);
#310=EDGE_CURVE('',#282,#282,#322,.T.);
#311=CIRCLE('',#324,17.5);
#312=CIRCLE('',#325,36.55);
#313=CIRCLE('',#330,17.5);
#314=CIRCLE('',#332,2.5);
#315=CIRCLE('',#333,2.5);
#316=CIRCLE('',#335,3.4);
#317=CIRCLE('',#336,3.4);
#318=CIRCLE('',#338,2.5);
#319=CIRCLE('',#339,2.5);
#320=CIRCLE('',#342,36.55);
#321=CIRCLE('',#345,3.4);
#322=CIRCLE('',#348,3.4);
#323=AXIS2_PLACEMENT_3D('',#423,#351,#352);
#324=AXIS2_PLACEMENT_3D('',#424,#353,#354);
#325=AXIS2_PLACEMENT_3D('',#426,#355,#356);
#326=AXIS2_PLACEMENT_3D('',#430,#358,#359);
#327=AXIS2_PLACEMENT_3D('',#439,#364,#365);
#328=AXIS2_PLACEMENT_3D('',#445,#369,#370);
#329=AXIS2_PLACEMENT_3D('',#451,#374,#375);
#330=AXIS2_PLACEMENT_3D('',#452,#376,#377);
#331=AXIS2_PLACEMENT_3D('',#454,#378,#379);
#332=AXIS2_PLACEMENT_3D('',#455,#380,#381);
#333=AXIS2_PLACEMENT_3D('',#457,#382,#383);
#334=AXIS2_PLACEMENT_3D('',#459,#384,#385);
#335=AXIS2_PLACEMENT_3D('',#460,#386,#387);
#336=AXIS2_PLACEMENT_3D('',#462,#388,#389);
#337=AXIS2_PLACEMENT_3D('',#471,#395,#396);
#338=AXIS2_PLACEMENT_3D('',#472,#397,#398);
#339=AXIS2_PLACEMENT_3D('',#474,#399,#400);
#340=AXIS2_PLACEMENT_3D('',#476,#401,#402);
#341=AXIS2_PLACEMENT_3D('',#477,#403,#404);
#342=AXIS2_PLACEMENT_3D('',#478,#405,#406);
#343=AXIS2_PLACEMENT_3D('',#479,#407,#408);
#344=AXIS2_PLACEMENT_3D('',#480,#409,#410);
#345=AXIS2_PLACEMENT_3D('',#481,#411,#412);
#346=AXIS2_PLACEMENT_3D('',#483,#413,#414);
#347=AXIS2_PLACEMENT_3D('',#484,#415,#416);
#348=AXIS2_PLACEMENT_3D('',#485,#417,#418);
#349=AXIS2_PLACEMENT_3D('',#487,#419,#420);
#350=AXIS2_PLACEMENT_3D('',#488,#421,#422);
#351=DIRECTION('',(0.,0.,1.));
#352=DIRECTION('',(1.,0.,0.));
#353=DIRECTION('',(7.73479010672009E-32,-1.,-9.47238594627137E-48));
#354=DIRECTION('',(-1.,0.,0.));
#355=DIRECTION('',(7.73479010672009E-32,-1.,-9.47238594627137E-48));
#356=DIRECTION('',(-0.999999999999999,0.,0.));
#357=DIRECTION('',(-4.07692714227069E-15,-3.24814143204811E-46,1.));
#358=DIRECTION('',(7.73479010672009E-32,-1.,-9.47238594627137E-48));
#359=DIRECTION('',(-2.22044604925031E-16,0.,-1.));
#360=DIRECTION('',(7.73479010672009E-32,-1.,-9.47238594627137E-48));
#361=DIRECTION('',(1.,7.73479010672009E-32,-2.44929359829471E-16));
#362=DIRECTION('',(7.73479010672009E-32,-1.,-9.47238594627137E-48));
#363=DIRECTION('',(-1.,-7.73479010672009E-32,2.44929359829471E-16));
#364=DIRECTION('',(2.44929359829471E-16,9.47238594627137E-48,1.));
#365=DIRECTION('',(-1.,0.,2.22044604925031E-16));
#366=DIRECTION('',(-2.44929359829471E-16,-9.47238594627137E-48,-1.));
#367=DIRECTION('',(7.73479010672009E-32,-1.,-9.47238594627137E-48));
#368=DIRECTION('',(2.44929359829471E-16,9.47238594627137E-48,1.));
#369=DIRECTION('',(1.,7.73479010672009E-32,-2.44929359829471E-16));
#370=DIRECTION('',(2.22044604925031E-16,0.,1.));
#371=DIRECTION('',(-1.,-7.73479010672009E-32,2.44929359829471E-16));
#372=DIRECTION('',(7.73479010672009E-32,-1.,-9.47238594627137E-48));
#373=DIRECTION('',(1.,7.73479010672009E-32,-2.44929359829471E-16));
#374=DIRECTION('',(-2.44929359829471E-16,-9.47238594627137E-48,-1.));
#375=DIRECTION('',(1.,0.,-2.22044604925031E-16));
#376=DIRECTION('',(7.73479010672009E-32,-1.,-9.47238594627137E-48));
#377=DIRECTION('',(-1.,0.,0.));
#378=DIRECTION('',(-7.73479010672009E-32,1.,9.47238594627137E-48));
#379=DIRECTION('',(0.,0.,0.999999999999998));
#380=DIRECTION('',(7.73479010672009E-32,-1.,-9.47238594627137E-48));
#381=DIRECTION('',(-1.,0.,0.));
#382=DIRECTION('',(7.73479010672009E-32,-1.,-9.47238594627137E-48));
#383=DIRECTION('',(-1.,0.,0.));
#384=DIRECTION('',(-7.73479010672009E-32,1.,9.47238594627137E-48));
#385=DIRECTION('',(0.,0.,0.999999999999979));
#386=DIRECTION('',(-1.,-7.73479010672009E-32,-4.07692714227069E-15));
#387=DIRECTION('',(0.,0.,-0.999999999999988));
#388=DIRECTION('',(-1.,-7.73479010672009E-32,-4.07692714227069E-15));
#389=DIRECTION('',(0.,0.,-0.999999999999988));
#390=DIRECTION('',(2.44929359829471E-16,9.47238594627137E-48,1.));
#391=DIRECTION('',(-2.44929359829471E-16,-9.47238594627137E-48,-1.));
#392=DIRECTION('',(7.73479010672009E-32,-1.,-9.47238594627137E-48));
#393=DIRECTION('',(-7.73479010672009E-32,1.,9.47238594627137E-48));
#394=DIRECTION('',(-2.44929359829471E-16,-9.47238594627137E-48,-1.));
#395=DIRECTION('',(-1.,-7.73479010672009E-32,-4.07692714227069E-15));
#396=DIRECTION('',(4.10782519111308E-15,0.,-1.));
#397=DIRECTION('',(7.73479010672009E-32,-1.,-9.47238594627137E-48));
#398=DIRECTION('',(-1.,0.,0.));
#399=DIRECTION('',(7.73479010672009E-32,-1.,-9.47238594627137E-48));
#400=DIRECTION('',(-1.,0.,0.));
#401=DIRECTION('',(-7.73479010672009E-32,1.,9.47238594627137E-48));
#402=DIRECTION('',(0.,0.,0.999999999999979));
#403=DIRECTION('',(7.73479010672009E-32,-1.,-9.47238594627137E-48));
#404=DIRECTION('',(-2.22044604925031E-16,0.,-1.));
#405=DIRECTION('',(7.73479010672009E-32,-1.,-9.47238594627137E-48));
#406=DIRECTION('',(-0.999999999999999,0.,0.));
#407=DIRECTION('',(7.73479010672009E-32,-1.,-9.47238594627137E-48));
#408=DIRECTION('',(0.,0.,-0.999999999999999));
#409=DIRECTION('',(7.73479010672009E-32,-1.,-9.47238594627137E-48));
#410=DIRECTION('',(-2.22044604925031E-16,0.,-1.));
#411=DIRECTION('',(-1.,-7.73479010672009E-32,2.44929359829471E-16));
#412=DIRECTION('',(0.,0.,0.999999999999988));
#413=DIRECTION('',(1.,7.73479010672009E-32,-2.44929359829471E-16));
#414=DIRECTION('',(0.,0.,0.999999999999988));
#415=DIRECTION('',(1.,7.73479010672009E-32,-2.44929359829471E-16));
#416=DIRECTION('',(2.22044604925031E-16,0.,1.));
#417=DIRECTION('',(-1.,-7.73479010672009E-32,2.44929359829471E-16));
#418=DIRECTION('',(0.,0.,0.999999999999988));
#419=DIRECTION('',(1.,7.73479010672009E-32,-2.44929359829471E-16));
#420=DIRECTION('',(0.,0.,0.999999999999988));
#421=DIRECTION('',(1.,7.73479010672009E-32,-2.44929359829471E-16));
#422=DIRECTION('',(2.22044604925031E-16,0.,1.));
#423=CARTESIAN_POINT('',(0.,0.,0.));
#424=CARTESIAN_POINT('',(477.212918613727,2917.42621939333,-633.749999999999));
#425=CARTESIAN_POINT('',(459.712918613727,2917.42621939333,-633.749999999999));
#426=CARTESIAN_POINT('',(477.212918613727,2917.42621939333,-633.749999999999));
#427=CARTESIAN_POINT('',(503.212918613728,2917.42621939333,-608.061432503932));
#428=CARTESIAN_POINT('',(503.212918613728,2917.42621939333,-659.438567496066));
#429=CARTESIAN_POINT('',(503.212918613728,2917.42621939333,-608.061432503933));
#430=CARTESIAN_POINT('',(442.412918613728,2917.42621939333,-668.549999999999));
#431=CARTESIAN_POINT('',(503.212918613728,2899.02621939333,-676.75));
#432=CARTESIAN_POINT('',(503.212918613728,2919.02621939333,-676.75));
#433=CARTESIAN_POINT('',(503.212918613728,2899.02621939333,-676.75));
#434=CARTESIAN_POINT('',(503.212918613728,2899.02621939333,-676.75));
#435=CARTESIAN_POINT('',(434.212918613727,2899.02621939333,-676.75));
#436=CARTESIAN_POINT('',(434.212918613727,2899.02621939333,-676.75));
#437=CARTESIAN_POINT('',(434.212918613727,2919.02621939333,-676.75));
#438=CARTESIAN_POINT('',(434.212918613727,2919.02621939333,-676.75));
#439=CARTESIAN_POINT('',(503.212918613728,2899.02621939333,-676.75));
#440=CARTESIAN_POINT('',(434.212918613727,2899.02621939333,-676.75));
#441=CARTESIAN_POINT('',(434.212918613727,2899.02621939333,-590.75));
#442=CARTESIAN_POINT('',(434.212918613727,2899.02621939333,-590.75));
#443=CARTESIAN_POINT('',(434.212918613727,2919.02621939333,-590.75));
#444=CARTESIAN_POINT('',(434.212918613727,2919.02621939333,-590.75));
#445=CARTESIAN_POINT('',(434.212918613727,2899.02621939333,-676.75));
#446=CARTESIAN_POINT('',(434.212918613727,2899.02621939333,-590.75));
#447=CARTESIAN_POINT('',(503.212918613728,2899.02621939333,-590.75));
#448=CARTESIAN_POINT('',(503.212918613728,2899.02621939333,-590.75));
#449=CARTESIAN_POINT('',(503.212918613728,2919.02621939333,-590.75));
#450=CARTESIAN_POINT('',(503.212918613728,2919.02621939333,-590.75));
#451=CARTESIAN_POINT('',(434.212918613727,2899.02621939333,-590.75));
#452=CARTESIAN_POINT('',(477.212918613727,2899.02621939333,-633.749999999999));
#453=CARTESIAN_POINT('',(459.712918613727,2899.02621939333,-633.749999999999));
#454=CARTESIAN_POINT('',(477.212918613727,2899.02621939333,-633.749999999999));
#455=CARTESIAN_POINT('',(442.412918613728,2899.02621939333,-668.549999999999));
#456=CARTESIAN_POINT('',(439.912918613728,2899.02621939333,-668.549999999999));
#457=CARTESIAN_POINT('',(442.412918613728,2919.02621939333,-668.549999999999));
#458=CARTESIAN_POINT('',(439.912918613728,2919.02621939333,-668.549999999999));
#459=CARTESIAN_POINT('',(442.412918613728,2899.02621939333,-668.549999999999));
#460=CARTESIAN_POINT('',(503.212918613728,2907.02621939333,-658.75));
#461=CARTESIAN_POINT('',(503.212918613728,2907.02621939333,-662.15));
#462=CARTESIAN_POINT('',(503.212918613728,2907.02621939333,-608.75));
#463=CARTESIAN_POINT('',(503.212918613728,2907.02621939333,-612.15));
#464=CARTESIAN_POINT('',(503.212918613728,2899.02621939333,-659.438567496066));
#465=CARTESIAN_POINT('',(503.212918613728,2919.02621939333,-676.75));
#466=CARTESIAN_POINT('',(503.212918613728,2919.02621939333,-659.438567496066));
#467=CARTESIAN_POINT('',(503.212918613728,2919.02621939333,-659.438567496066));
#468=CARTESIAN_POINT('',(503.212918613728,2919.02621939333,-608.061432503932));
#469=CARTESIAN_POINT('',(503.212918613728,2919.02621939333,-608.061432503932));
#470=CARTESIAN_POINT('',(503.212918613728,2919.02621939333,-608.061432503933));
#471=CARTESIAN_POINT('',(503.212918613728,2899.02621939333,-608.061432503933));
#472=CARTESIAN_POINT('',(442.412918613728,2899.02621939333,-598.949999999999));
#473=CARTESIAN_POINT('',(439.912918613728,2899.02621939333,-598.949999999999));
#474=CARTESIAN_POINT('',(442.412918613728,2919.02621939333,-598.949999999999));
#475=CARTESIAN_POINT('',(439.912918613728,2919.02621939333,-598.949999999999));
#476=CARTESIAN_POINT('',(442.412918613728,2899.02621939333,-598.949999999999));
#477=CARTESIAN_POINT('',(442.412918613728,2899.02621939333,-668.549999999999));
#478=CARTESIAN_POINT('',(477.212918613727,2919.02621939333,-633.749999999999));
#479=CARTESIAN_POINT('',(477.212918613727,2919.02621939333,-633.749999999999));
#480=CARTESIAN_POINT('',(477.212918613727,2919.02621939333,-633.749999999999));
#481=CARTESIAN_POINT('',(478.212918613728,2907.02621939333,-608.75));
#482=CARTESIAN_POINT('',(478.212918613728,2907.02621939333,-605.35));
#483=CARTESIAN_POINT('',(478.212918613728,2907.02621939333,-608.75));
#484=CARTESIAN_POINT('',(478.212918613728,2907.02621939333,-608.75));
#485=CARTESIAN_POINT('',(478.212918613728,2907.02621939333,-658.75));
#486=CARTESIAN_POINT('',(478.212918613728,2907.02621939333,-655.35));
#487=CARTESIAN_POINT('',(478.212918613728,2907.02621939333,-658.75));
#488=CARTESIAN_POINT('',(478.212918613728,2907.02621939333,-658.75));
#489=(
GEOMETRIC_REPRESENTATION_CONTEXT(3)
GLOBAL_UNCERTAINTY_ASSIGNED_CONTEXT((#490))
GLOBAL_UNIT_ASSIGNED_CONTEXT((#496,#492,#491))
REPRESENTATION_CONTEXT('X Motor Halteplatte','TOP_LEVEL_ASSEMBLY_PART')
);
#490=UNCERTAINTY_MEASURE_WITH_UNIT(LENGTH_MEASURE(2.E-5),#496,
'DISTANCE_ACCURACY_VALUE','Maximum Tolerance applied to model');
#491=(
NAMED_UNIT(*)
SI_UNIT($,.STERADIAN.)
SOLID_ANGLE_UNIT()
);
#492=(
CONVERSION_BASED_UNIT('DEGREE',#494)
NAMED_UNIT(#493)
PLANE_ANGLE_UNIT()
);
#493=DIMENSIONAL_EXPONENTS(0.,0.,0.,0.,0.,0.,0.);
#494=PLANE_ANGLE_MEASURE_WITH_UNIT(PLANE_ANGLE_MEASURE(0.0174532925),#495);
#495=(
NAMED_UNIT(*)
PLANE_ANGLE_UNIT()
SI_UNIT($,.RADIAN.)
);
#496=(
LENGTH_UNIT()
NAMED_UNIT(*)
SI_UNIT(.MILLI.,.METRE.)
);
ENDSEC;
END-ISO-10303-21;
